ISO-10303-21;
HEADER;
/* Generated by software containing ST-Developer
 * from STEP Tools, Inc. (www.steptools.com) 
 */

FILE_DESCRIPTION(
/* description */ ('Alibre Inc.'),
/* implementation_level */ '2;1');

FILE_NAME(
/* name */ 'C:\\Users\\Do\X2\011F\X0\an\\Desktop\\O SER\X2\0130\X0\S\X2\0130\X0\\\
O 750 - 32.stp',
/* time_stamp */ '2019-05-22T11:45:12+03:00',
/* author */ ('Do\X2\011F\X0\an'),
/* organization */ (''),
/* preprocessor_version */ 'ST-DEVELOPER v18',
/* originating_system */ 'Autodesk Inventor 2020',
/* authorisation */ '');

FILE_SCHEMA (('AUTOMOTIVE_DESIGN { 1 0 10303 214 3 1 1 }'));
ENDSEC;

DATA;
#10=MECHANICAL_DESIGN_GEOMETRIC_PRESENTATION_REPRESENTATION('',(#13),#388);
#11=SHAPE_REPRESENTATION_RELATIONSHIP('SRR','None',#395,#12);
#12=ADVANCED_BREP_SHAPE_REPRESENTATION('',(#14),#387);
#13=STYLED_ITEM('',(#404),#14);
#14=MANIFOLD_SOLID_BREP('Solid1',#200);
#15=FACE_BOUND('',#63,.T.);
#16=FACE_BOUND('',#65,.T.);
#17=FACE_BOUND('',#66,.T.);
#18=FACE_BOUND('',#67,.T.);
#19=PLANE('',#227);
#20=PLANE('',#233);
#21=PLANE('',#239);
#22=PLANE('',#245);
#23=PLANE('',#251);
#24=PLANE('',#252);
#25=LINE('',#335,#30);
#26=LINE('',#346,#31);
#27=LINE('',#357,#32);
#28=LINE('',#368,#33);
#29=LINE('',#378,#34);
#30=VECTOR('',#265,10.);
#31=VECTOR('',#278,2.4585);
#32=VECTOR('',#291,2.067);
#33=VECTOR('',#304,2.067);
#34=VECTOR('',#315,16.);
#35=CYLINDRICAL_SURFACE('',#224,10.);
#36=CYLINDRICAL_SURFACE('',#228,2.4585);
#37=CYLINDRICAL_SURFACE('',#234,2.067);
#38=CYLINDRICAL_SURFACE('',#240,2.067);
#39=CYLINDRICAL_SURFACE('',#246,16.);
#40=FACE_OUTER_BOUND('',#52,.T.);
#41=FACE_OUTER_BOUND('',#53,.T.);
#42=FACE_OUTER_BOUND('',#54,.T.);
#43=FACE_OUTER_BOUND('',#55,.T.);
#44=FACE_OUTER_BOUND('',#56,.T.);
#45=FACE_OUTER_BOUND('',#57,.T.);
#46=FACE_OUTER_BOUND('',#58,.T.);
#47=FACE_OUTER_BOUND('',#59,.T.);
#48=FACE_OUTER_BOUND('',#60,.T.);
#49=FACE_OUTER_BOUND('',#61,.T.);
#50=FACE_OUTER_BOUND('',#62,.T.);
#51=FACE_OUTER_BOUND('',#64,.T.);
#52=EDGE_LOOP('',(#135,#136,#137,#138));
#53=EDGE_LOOP('',(#139,#140,#141,#142,#143));
#54=EDGE_LOOP('',(#144));
#55=EDGE_LOOP('',(#145,#146,#147,#148,#149,#150));
#56=EDGE_LOOP('',(#151,#152));
#57=EDGE_LOOP('',(#153,#154,#155,#156,#157,#158));
#58=EDGE_LOOP('',(#159,#160));
#59=EDGE_LOOP('',(#161,#162,#163,#164,#165,#166));
#60=EDGE_LOOP('',(#167,#168));
#61=EDGE_LOOP('',(#169,#170,#171,#172,#173,#174));
#62=EDGE_LOOP('',(#175,#176));
#63=EDGE_LOOP('',(#177,#178));
#64=EDGE_LOOP('',(#179,#180));
#65=EDGE_LOOP('',(#181,#182));
#66=EDGE_LOOP('',(#183,#184));
#67=EDGE_LOOP('',(#185,#186));
#68=CIRCLE('',#221,9.5);
#69=CIRCLE('',#222,0.5);
#70=CIRCLE('',#223,10.);
#71=CIRCLE('',#225,10.);
#72=CIRCLE('',#226,10.);
#73=CIRCLE('',#229,2.4585);
#74=CIRCLE('',#230,2.4585);
#75=CIRCLE('',#231,2.4585);
#76=CIRCLE('',#232,2.4585);
#77=CIRCLE('',#235,2.067);
#78=CIRCLE('',#236,2.067);
#79=CIRCLE('',#237,2.067);
#80=CIRCLE('',#238,2.067);
#81=CIRCLE('',#241,2.067);
#82=CIRCLE('',#242,2.067);
#83=CIRCLE('',#243,2.067);
#84=CIRCLE('',#244,2.067);
#85=CIRCLE('',#247,16.);
#86=CIRCLE('',#248,16.);
#87=CIRCLE('',#249,16.);
#88=CIRCLE('',#250,16.);
#89=VERTEX_POINT('',#328);
#90=VERTEX_POINT('',#330);
#91=VERTEX_POINT('',#334);
#92=VERTEX_POINT('',#336);
#93=VERTEX_POINT('',#341);
#94=VERTEX_POINT('',#342);
#95=VERTEX_POINT('',#345);
#96=VERTEX_POINT('',#347);
#97=VERTEX_POINT('',#352);
#98=VERTEX_POINT('',#353);
#99=VERTEX_POINT('',#356);
#100=VERTEX_POINT('',#358);
#101=VERTEX_POINT('',#363);
#102=VERTEX_POINT('',#364);
#103=VERTEX_POINT('',#367);
#104=VERTEX_POINT('',#369);
#105=VERTEX_POINT('',#374);
#106=VERTEX_POINT('',#375);
#107=VERTEX_POINT('',#377);
#108=VERTEX_POINT('',#379);
#109=EDGE_CURVE('',#89,#89,#68,.T.);
#110=EDGE_CURVE('',#89,#90,#69,.T.);
#111=EDGE_CURVE('',#90,#90,#70,.T.);
#112=EDGE_CURVE('',#90,#91,#25,.T.);
#113=EDGE_CURVE('',#92,#91,#71,.T.);
#114=EDGE_CURVE('',#91,#92,#72,.T.);
#115=EDGE_CURVE('',#93,#94,#73,.T.);
#116=EDGE_CURVE('',#94,#93,#74,.T.);
#117=EDGE_CURVE('',#94,#95,#26,.T.);
#118=EDGE_CURVE('',#96,#95,#75,.T.);
#119=EDGE_CURVE('',#95,#96,#76,.T.);
#120=EDGE_CURVE('',#97,#98,#77,.T.);
#121=EDGE_CURVE('',#98,#97,#78,.T.);
#122=EDGE_CURVE('',#98,#99,#27,.T.);
#123=EDGE_CURVE('',#100,#99,#79,.T.);
#124=EDGE_CURVE('',#99,#100,#80,.T.);
#125=EDGE_CURVE('',#101,#102,#81,.T.);
#126=EDGE_CURVE('',#102,#101,#82,.T.);
#127=EDGE_CURVE('',#102,#103,#28,.T.);
#128=EDGE_CURVE('',#104,#103,#83,.T.);
#129=EDGE_CURVE('',#103,#104,#84,.T.);
#130=EDGE_CURVE('',#105,#106,#85,.T.);
#131=EDGE_CURVE('',#106,#107,#29,.T.);
#132=EDGE_CURVE('',#107,#108,#86,.T.);
#133=EDGE_CURVE('',#108,#107,#87,.T.);
#134=EDGE_CURVE('',#106,#105,#88,.T.);
#135=ORIENTED_EDGE('',*,*,#109,.T.);
#136=ORIENTED_EDGE('',*,*,#110,.T.);
#137=ORIENTED_EDGE('',*,*,#111,.T.);
#138=ORIENTED_EDGE('',*,*,#110,.F.);
#139=ORIENTED_EDGE('',*,*,#111,.F.);
#140=ORIENTED_EDGE('',*,*,#112,.T.);
#141=ORIENTED_EDGE('',*,*,#113,.F.);
#142=ORIENTED_EDGE('',*,*,#114,.F.);
#143=ORIENTED_EDGE('',*,*,#112,.F.);
#144=ORIENTED_EDGE('',*,*,#109,.F.);
#145=ORIENTED_EDGE('',*,*,#115,.F.);
#146=ORIENTED_EDGE('',*,*,#116,.F.);
#147=ORIENTED_EDGE('',*,*,#117,.T.);
#148=ORIENTED_EDGE('',*,*,#118,.F.);
#149=ORIENTED_EDGE('',*,*,#119,.F.);
#150=ORIENTED_EDGE('',*,*,#117,.F.);
#151=ORIENTED_EDGE('',*,*,#118,.T.);
#152=ORIENTED_EDGE('',*,*,#119,.T.);
#153=ORIENTED_EDGE('',*,*,#120,.F.);
#154=ORIENTED_EDGE('',*,*,#121,.F.);
#155=ORIENTED_EDGE('',*,*,#122,.T.);
#156=ORIENTED_EDGE('',*,*,#123,.F.);
#157=ORIENTED_EDGE('',*,*,#124,.F.);
#158=ORIENTED_EDGE('',*,*,#122,.F.);
#159=ORIENTED_EDGE('',*,*,#123,.T.);
#160=ORIENTED_EDGE('',*,*,#124,.T.);
#161=ORIENTED_EDGE('',*,*,#125,.F.);
#162=ORIENTED_EDGE('',*,*,#126,.F.);
#163=ORIENTED_EDGE('',*,*,#127,.T.);
#164=ORIENTED_EDGE('',*,*,#128,.F.);
#165=ORIENTED_EDGE('',*,*,#129,.F.);
#166=ORIENTED_EDGE('',*,*,#127,.F.);
#167=ORIENTED_EDGE('',*,*,#128,.T.);
#168=ORIENTED_EDGE('',*,*,#129,.T.);
#169=ORIENTED_EDGE('',*,*,#130,.T.);
#170=ORIENTED_EDGE('',*,*,#131,.T.);
#171=ORIENTED_EDGE('',*,*,#132,.T.);
#172=ORIENTED_EDGE('',*,*,#133,.T.);
#173=ORIENTED_EDGE('',*,*,#131,.F.);
#174=ORIENTED_EDGE('',*,*,#134,.T.);
#175=ORIENTED_EDGE('',*,*,#130,.F.);
#176=ORIENTED_EDGE('',*,*,#134,.F.);
#177=ORIENTED_EDGE('',*,*,#113,.T.);
#178=ORIENTED_EDGE('',*,*,#114,.T.);
#179=ORIENTED_EDGE('',*,*,#133,.F.);
#180=ORIENTED_EDGE('',*,*,#132,.F.);
#181=ORIENTED_EDGE('',*,*,#115,.T.);
#182=ORIENTED_EDGE('',*,*,#116,.T.);
#183=ORIENTED_EDGE('',*,*,#120,.T.);
#184=ORIENTED_EDGE('',*,*,#121,.T.);
#185=ORIENTED_EDGE('',*,*,#125,.T.);
#186=ORIENTED_EDGE('',*,*,#126,.T.);
#187=TOROIDAL_SURFACE('',#220,9.5,0.5);
#188=ADVANCED_FACE('',(#40),#187,.T.);
#189=ADVANCED_FACE('',(#41),#35,.T.);
#190=ADVANCED_FACE('',(#42),#19,.T.);
#191=ADVANCED_FACE('',(#43),#36,.F.);
#192=ADVANCED_FACE('',(#44),#20,.F.);
#193=ADVANCED_FACE('',(#45),#37,.F.);
#194=ADVANCED_FACE('',(#46),#21,.F.);
#195=ADVANCED_FACE('',(#47),#38,.F.);
#196=ADVANCED_FACE('',(#48),#22,.F.);
#197=ADVANCED_FACE('',(#49),#39,.T.);
#198=ADVANCED_FACE('',(#50,#15),#23,.T.);
#199=ADVANCED_FACE('',(#51,#16,#17,#18),#24,.F.);
#200=CLOSED_SHELL('',(#188,#189,#190,#191,#192,#193,#194,#195,#196,#197,
#198,#199));
#201=DERIVED_UNIT_ELEMENT(#203,1.);
#202=DERIVED_UNIT_ELEMENT(#390,3.);
#203=(
MASS_UNIT()
NAMED_UNIT(*)
SI_UNIT($,.GRAM.)
);
#204=DERIVED_UNIT((#201,#202));
#205=MEASURE_REPRESENTATION_ITEM('density measure',
POSITIVE_RATIO_MEASURE(1.),#204);
#206=PROPERTY_DEFINITION_REPRESENTATION(#211,#208);
#207=PROPERTY_DEFINITION_REPRESENTATION(#212,#209);
#208=REPRESENTATION('material name',(#210),#387);
#209=REPRESENTATION('density',(#205),#387);
#210=DESCRIPTIVE_REPRESENTATION_ITEM('Generic','Generic');
#211=PROPERTY_DEFINITION('material property','material name',#397);
#212=PROPERTY_DEFINITION('material property','density of part',#397);
#213=DATE_TIME_ROLE('creation_date');
#214=APPLIED_DATE_AND_TIME_ASSIGNMENT(#215,#213,(#397));
#215=DATE_AND_TIME(#216,#217);
#216=CALENDAR_DATE(2019,22,5);
#217=LOCAL_TIME(11,18,14.,#218);
#218=COORDINATED_UNIVERSAL_TIME_OFFSET(0,0,.BEHIND.);
#219=AXIS2_PLACEMENT_3D('placement',#326,#253,#254);
#220=AXIS2_PLACEMENT_3D('',#327,#255,#256);
#221=AXIS2_PLACEMENT_3D('',#329,#257,#258);
#222=AXIS2_PLACEMENT_3D('',#331,#259,#260);
#223=AXIS2_PLACEMENT_3D('',#332,#261,#262);
#224=AXIS2_PLACEMENT_3D('',#333,#263,#264);
#225=AXIS2_PLACEMENT_3D('',#337,#266,#267);
#226=AXIS2_PLACEMENT_3D('',#338,#268,#269);
#227=AXIS2_PLACEMENT_3D('',#339,#270,#271);
#228=AXIS2_PLACEMENT_3D('',#340,#272,#273);
#229=AXIS2_PLACEMENT_3D('',#343,#274,#275);
#230=AXIS2_PLACEMENT_3D('',#344,#276,#277);
#231=AXIS2_PLACEMENT_3D('',#348,#279,#280);
#232=AXIS2_PLACEMENT_3D('',#349,#281,#282);
#233=AXIS2_PLACEMENT_3D('',#350,#283,#284);
#234=AXIS2_PLACEMENT_3D('',#351,#285,#286);
#235=AXIS2_PLACEMENT_3D('',#354,#287,#288);
#236=AXIS2_PLACEMENT_3D('',#355,#289,#290);
#237=AXIS2_PLACEMENT_3D('',#359,#292,#293);
#238=AXIS2_PLACEMENT_3D('',#360,#294,#295);
#239=AXIS2_PLACEMENT_3D('',#361,#296,#297);
#240=AXIS2_PLACEMENT_3D('',#362,#298,#299);
#241=AXIS2_PLACEMENT_3D('',#365,#300,#301);
#242=AXIS2_PLACEMENT_3D('',#366,#302,#303);
#243=AXIS2_PLACEMENT_3D('',#370,#305,#306);
#244=AXIS2_PLACEMENT_3D('',#371,#307,#308);
#245=AXIS2_PLACEMENT_3D('',#372,#309,#310);
#246=AXIS2_PLACEMENT_3D('',#373,#311,#312);
#247=AXIS2_PLACEMENT_3D('',#376,#313,#314);
#248=AXIS2_PLACEMENT_3D('',#380,#316,#317);
#249=AXIS2_PLACEMENT_3D('',#381,#318,#319);
#250=AXIS2_PLACEMENT_3D('',#382,#320,#321);
#251=AXIS2_PLACEMENT_3D('',#383,#322,#323);
#252=AXIS2_PLACEMENT_3D('',#384,#324,#325);
#253=DIRECTION('axis',(0.,0.,1.));
#254=DIRECTION('refdir',(1.,0.,0.));
#255=DIRECTION('center_axis',(0.,0.,1.));
#256=DIRECTION('ref_axis',(1.,0.,0.));
#257=DIRECTION('center_axis',(0.,0.,-1.));
#258=DIRECTION('ref_axis',(1.,0.,0.));
#259=DIRECTION('center_axis',(1.22464679914735E-16,-1.,0.));
#260=DIRECTION('ref_axis',(-1.,-1.22464679914735E-16,0.));
#261=DIRECTION('center_axis',(0.,0.,1.));
#262=DIRECTION('ref_axis',(1.,0.,0.));
#263=DIRECTION('center_axis',(0.,0.,1.));
#264=DIRECTION('ref_axis',(1.,0.,0.));
#265=DIRECTION('',(0.,0.,-1.));
#266=DIRECTION('center_axis',(0.,0.,-1.));
#267=DIRECTION('ref_axis',(1.,0.,0.));
#268=DIRECTION('center_axis',(0.,0.,-1.));
#269=DIRECTION('ref_axis',(1.,0.,0.));
#270=DIRECTION('center_axis',(0.,0.,1.));
#271=DIRECTION('ref_axis',(-1.,0.,0.));
#272=DIRECTION('center_axis',(0.,0.,1.));
#273=DIRECTION('ref_axis',(1.,0.,0.));
#274=DIRECTION('center_axis',(0.,0.,1.));
#275=DIRECTION('ref_axis',(1.,0.,0.));
#276=DIRECTION('center_axis',(0.,0.,1.));
#277=DIRECTION('ref_axis',(1.,0.,0.));
#278=DIRECTION('',(0.,0.,1.));
#279=DIRECTION('center_axis',(0.,0.,-1.));
#280=DIRECTION('ref_axis',(1.,0.,0.));
#281=DIRECTION('center_axis',(0.,0.,-1.));
#282=DIRECTION('ref_axis',(1.,0.,0.));
#283=DIRECTION('center_axis',(0.,0.,1.));
#284=DIRECTION('ref_axis',(-1.,0.,0.));
#285=DIRECTION('center_axis',(0.,0.,1.));
#286=DIRECTION('ref_axis',(1.,0.,0.));
#287=DIRECTION('center_axis',(0.,0.,1.));
#288=DIRECTION('ref_axis',(1.,0.,0.));
#289=DIRECTION('center_axis',(0.,0.,1.));
#290=DIRECTION('ref_axis',(1.,0.,0.));
#291=DIRECTION('',(0.,0.,1.));
#292=DIRECTION('center_axis',(0.,0.,-1.));
#293=DIRECTION('ref_axis',(1.,0.,0.));
#294=DIRECTION('center_axis',(0.,0.,-1.));
#295=DIRECTION('ref_axis',(1.,0.,0.));
#296=DIRECTION('center_axis',(0.,0.,1.));
#297=DIRECTION('ref_axis',(-1.,0.,0.));
#298=DIRECTION('center_axis',(0.,0.,1.));
#299=DIRECTION('ref_axis',(1.,0.,0.));
#300=DIRECTION('center_axis',(0.,0.,1.));
#301=DIRECTION('ref_axis',(1.,0.,0.));
#302=DIRECTION('center_axis',(0.,0.,1.));
#303=DIRECTION('ref_axis',(1.,0.,0.));
#304=DIRECTION('',(0.,0.,1.));
#305=DIRECTION('center_axis',(0.,0.,-1.));
#306=DIRECTION('ref_axis',(1.,0.,0.));
#307=DIRECTION('center_axis',(0.,0.,-1.));
#308=DIRECTION('ref_axis',(1.,0.,0.));
#309=DIRECTION('center_axis',(0.,0.,1.));
#310=DIRECTION('ref_axis',(-1.,0.,0.));
#311=DIRECTION('center_axis',(0.,0.,1.));
#312=DIRECTION('ref_axis',(1.,0.,0.));
#313=DIRECTION('center_axis',(0.,0.,-1.));
#314=DIRECTION('ref_axis',(1.,0.,0.));
#315=DIRECTION('',(0.,0.,-1.));
#316=DIRECTION('center_axis',(0.,0.,1.));
#317=DIRECTION('ref_axis',(1.,0.,0.));
#318=DIRECTION('center_axis',(0.,0.,1.));
#319=DIRECTION('ref_axis',(1.,0.,0.));
#320=DIRECTION('center_axis',(0.,0.,-1.));
#321=DIRECTION('ref_axis',(1.,0.,0.));
#322=DIRECTION('center_axis',(0.,0.,1.));
#323=DIRECTION('ref_axis',(-1.,0.,0.));
#324=DIRECTION('center_axis',(0.,0.,1.));
#325=DIRECTION('ref_axis',(-1.,0.,0.));
#326=CARTESIAN_POINT('',(0.,0.,0.));
#327=CARTESIAN_POINT('Origin',(0.,0.,139.5));
#328=CARTESIAN_POINT('',(-9.5,1.16341445918999E-15,140.));
#329=CARTESIAN_POINT('Origin',(0.,0.,140.));
#330=CARTESIAN_POINT('',(-10.,-1.22464679914735E-15,139.5));
#331=CARTESIAN_POINT('Origin',(-9.5,-1.16341445918999E-15,139.5));
#332=CARTESIAN_POINT('Origin',(0.,0.,139.5));
#333=CARTESIAN_POINT('Origin',(0.,0.,64.));
#334=CARTESIAN_POINT('',(-10.,-1.22464679914735E-15,104.2));
#335=CARTESIAN_POINT('',(-10.,-1.22464679914735E-15,64.));
#336=CARTESIAN_POINT('',(10.,0.,104.2));
#337=CARTESIAN_POINT('Origin',(0.,0.,104.2));
#338=CARTESIAN_POINT('Origin',(0.,0.,104.2));
#339=CARTESIAN_POINT('Origin',(0.,0.,140.));
#340=CARTESIAN_POINT('Origin',(0.,0.,0.));
#341=CARTESIAN_POINT('',(2.4585,0.,0.));
#342=CARTESIAN_POINT('',(-2.4585,-3.01079415570377E-16,0.));
#343=CARTESIAN_POINT('Origin',(0.,0.,0.));
#344=CARTESIAN_POINT('Origin',(0.,0.,0.));
#345=CARTESIAN_POINT('',(-2.4585,-3.01079415570377E-16,7.5));
#346=CARTESIAN_POINT('',(-2.4585,-3.01079415570377E-16,0.));
#347=CARTESIAN_POINT('',(2.4585,0.,7.5));
#348=CARTESIAN_POINT('Origin',(0.,0.,7.5));
#349=CARTESIAN_POINT('Origin',(0.,0.,7.5));
#350=CARTESIAN_POINT('Origin',(0.,0.,7.5));
#351=CARTESIAN_POINT('Origin',(-7.5,0.,0.));
#352=CARTESIAN_POINT('',(-5.433,0.,0.));
#353=CARTESIAN_POINT('',(-9.567,-2.53134493383758E-16,0.));
#354=CARTESIAN_POINT('Origin',(-7.5,0.,0.));
#355=CARTESIAN_POINT('Origin',(-7.5,0.,0.));
#356=CARTESIAN_POINT('',(-9.567,-2.53134493383758E-16,7.5));
#357=CARTESIAN_POINT('',(-9.567,-2.53134493383758E-16,0.));
#358=CARTESIAN_POINT('',(-5.433,0.,7.5));
#359=CARTESIAN_POINT('Origin',(-7.5,0.,7.5));
#360=CARTESIAN_POINT('Origin',(-7.5,0.,7.5));
#361=CARTESIAN_POINT('Origin',(-7.5,0.,7.5));
#362=CARTESIAN_POINT('Origin',(7.5,0.,0.));
#363=CARTESIAN_POINT('',(9.567,0.,0.));
#364=CARTESIAN_POINT('',(5.433,-2.53134493383758E-16,0.));
#365=CARTESIAN_POINT('Origin',(7.5,0.,0.));
#366=CARTESIAN_POINT('Origin',(7.5,0.,0.));
#367=CARTESIAN_POINT('',(5.433,-2.53134493383758E-16,7.5));
#368=CARTESIAN_POINT('',(5.433,-2.53134493383758E-16,0.));
#369=CARTESIAN_POINT('',(9.567,0.,7.5));
#370=CARTESIAN_POINT('Origin',(7.5,0.,7.5));
#371=CARTESIAN_POINT('Origin',(7.5,0.,7.5));
#372=CARTESIAN_POINT('Origin',(7.5,0.,7.5));
#373=CARTESIAN_POINT('Origin',(0.,0.,0.));
#374=CARTESIAN_POINT('',(16.,0.,104.2));
#375=CARTESIAN_POINT('',(-16.,-1.95943487863577E-15,104.2));
#376=CARTESIAN_POINT('Origin',(0.,0.,104.2));
#377=CARTESIAN_POINT('',(-16.,-1.95943487863577E-15,0.));
#378=CARTESIAN_POINT('',(-16.,-1.95943487863577E-15,0.));
#379=CARTESIAN_POINT('',(16.,0.,0.));
#380=CARTESIAN_POINT('Origin',(0.,0.,0.));
#381=CARTESIAN_POINT('Origin',(0.,0.,0.));
#382=CARTESIAN_POINT('Origin',(0.,0.,104.2));
#383=CARTESIAN_POINT('Origin',(0.,0.,104.2));
#384=CARTESIAN_POINT('Origin',(0.,0.,0.));
#385=UNCERTAINTY_MEASURE_WITH_UNIT(LENGTH_MEASURE(0.01),#389,
'DISTANCE_ACCURACY_VALUE',
'Maximum model space distance between geometric entities at asserted c
onnectivities');
#386=UNCERTAINTY_MEASURE_WITH_UNIT(LENGTH_MEASURE(0.01),#389,
'DISTANCE_ACCURACY_VALUE',
'Maximum model space distance between geometric entities at asserted c
onnectivities');
#387=(
GEOMETRIC_REPRESENTATION_CONTEXT(3)
GLOBAL_UNCERTAINTY_ASSIGNED_CONTEXT((#385))
GLOBAL_UNIT_ASSIGNED_CONTEXT((#389,#391,#392))
REPRESENTATION_CONTEXT('','3D')
);
#388=(
GEOMETRIC_REPRESENTATION_CONTEXT(3)
GLOBAL_UNCERTAINTY_ASSIGNED_CONTEXT((#386))
GLOBAL_UNIT_ASSIGNED_CONTEXT((#389,#391,#392))
REPRESENTATION_CONTEXT('','3D')
);
#389=(
LENGTH_UNIT()
NAMED_UNIT(*)
SI_UNIT(.MILLI.,.METRE.)
);
#390=(
LENGTH_UNIT()
NAMED_UNIT(*)
SI_UNIT(.CENTI.,.METRE.)
);
#391=(
NAMED_UNIT(*)
PLANE_ANGLE_UNIT()
SI_UNIT($,.RADIAN.)
);
#392=(
NAMED_UNIT(*)
SI_UNIT($,.STERADIAN.)
SOLID_ANGLE_UNIT()
);
#393=SHAPE_DEFINITION_REPRESENTATION(#394,#395);
#394=PRODUCT_DEFINITION_SHAPE('',$,#397);
#395=SHAPE_REPRESENTATION('',(#219),#387);
#396=PRODUCT_DEFINITION_CONTEXT('part definition',#401,'design');
#397=PRODUCT_DEFINITION('O 750 - 10','O 750 - 10',#398,#396);
#398=PRODUCT_DEFINITION_FORMATION(
'PRODUCT_VERSION_IDPRODUCT_VERSION_DESCR',$,#403);
#399=PRODUCT_RELATED_PRODUCT_CATEGORY('O 750 - 10','O 750 - 10',(#403));
#400=APPLICATION_PROTOCOL_DEFINITION('international standard',
'automotive_design',2009,#401);
#401=APPLICATION_CONTEXT(
'Core Data for Automotive Mechanical Design Process');
#402=PRODUCT_CONTEXT('part definition',#401,'mechanical');
#403=PRODUCT('O 750 - 10','O 750 - 10','Alibre Inc.',(#402));
#404=PRESENTATION_STYLE_ASSIGNMENT((#405));
#405=SURFACE_STYLE_USAGE(.BOTH.,#408);
#406=SURFACE_STYLE_RENDERING_WITH_PROPERTIES($,#412,(#407));
#407=SURFACE_STYLE_TRANSPARENT(0.);
#408=SURFACE_SIDE_STYLE('',(#409,#406));
#409=SURFACE_STYLE_FILL_AREA(#410);
#410=FILL_AREA_STYLE('',(#411));
#411=FILL_AREA_STYLE_COLOUR('',#412);
#412=COLOUR_RGB('',0.749019607843137,0.749019607843137,0.749019607843137);
ENDSEC;
END-ISO-10303-21;
