ISO-10303-21;
HEADER;
/* Generated by software containing ST-Developer
 * from STEP Tools, Inc. (www.steptools.com) 
 */

FILE_DESCRIPTION(
/* description */ ('Alibre Inc.'),
/* implementation_level */ '2;1');

FILE_NAME(
/* name */ 'export-A9EDD8E4-C639-498F-8EA7-E5DF6BEBF9DC',
/* time_stamp */ '2019-05-22T11:26:17+03:00',
/* author */ (''),
/* organization */ (''),
/* preprocessor_version */ 'ST-DEVELOPER v17',
/* originating_system */ 'Alibre',
/* authorisation */ '');

FILE_SCHEMA (('CONFIG_CONTROL_DESIGN'));
ENDSEC;

DATA;
#10=MECHANICAL_CONTEXT('detailed design',#18,'mechanical');
#11=PRODUCT_RELATED_PRODUCT_CATEGORY('detail','',(#98));
#12=CC_DESIGN_SECURITY_CLASSIFICATION(#14,(#97));
#13=SECURITY_CLASSIFICATION_LEVEL('unclassified');
#14=SECURITY_CLASSIFICATION('name','Security for version',#13);
#15=SHAPE_DEFINITION_REPRESENTATION(#16,#477);
#16=PRODUCT_DEFINITION_SHAPE('','DefinitionDesc',#96);
#17=APPLICATION_PROTOCOL_DEFINITION('AP definition status',
'config_control_design',1994,#18);
#18=APPLICATION_CONTEXT(
'control the configuration of three dimensional design');
#19=DESIGN_CONTEXT('detailed design',#18,'design');
#20=PERSON_AND_ORGANIZATION_ROLE('creator');
#21=PERSON_AND_ORGANIZATION_ROLE('classification_officer');
#22=PERSON_AND_ORGANIZATION_ROLE('creator');
#23=PERSON_AND_ORGANIZATION_ROLE('design_supplier');
#24=PERSON_AND_ORGANIZATION_ROLE('design_owner');
#25=CC_DESIGN_PERSON_AND_ORGANIZATION_ASSIGNMENT(#57,#20,(#96));
#26=CC_DESIGN_PERSON_AND_ORGANIZATION_ASSIGNMENT(#60,#21,(#14));
#27=CC_DESIGN_PERSON_AND_ORGANIZATION_ASSIGNMENT(#61,#22,(#97));
#28=CC_DESIGN_PERSON_AND_ORGANIZATION_ASSIGNMENT(#62,#23,(#97));
#29=CC_DESIGN_PERSON_AND_ORGANIZATION_ASSIGNMENT(#63,#24,(#98));
#30=DATE_TIME_ROLE('creation_date');
#31=DATE_TIME_ROLE('classification_date');
#32=CC_DESIGN_DATE_AND_TIME_ASSIGNMENT(#86,#30,(#96));
#33=CC_DESIGN_DATE_AND_TIME_ASSIGNMENT(#89,#31,(#14));
#34=CC_DESIGN_APPROVAL(#93,(#96));
#35=CC_DESIGN_APPROVAL(#94,(#97));
#36=CC_DESIGN_APPROVAL(#95,(#14));
#37=APPROVAL_PERSON_ORGANIZATION(#56,#93,#64);
#38=APPROVAL_PERSON_ORGANIZATION(#58,#94,#65);
#39=APPROVAL_PERSON_ORGANIZATION(#59,#95,#66);
#40=ORGANIZATION('DEFINITION_APPROVEDBY_ORG_ID',
'DEFINITION_APPROVEDBY_ORG_NAME','DEFINITION_APPROVEDBY_ORG_DESCR');
#41=ORGANIZATION('DEF_CREATOR_ORG_ID','DEF_CREATOR_ORG_NAME',
'DEF_CREATOR_ORG_DESCR');
#42=ORGANIZATION('APPROVEDBY_ORG_ID','APPROVEDBY_ORG_NAME',
'APPROVEDBY_ORG_DESCR');
#43=ORGANIZATION('SECURITY_APPROVEDBY_ORG_ID',
'SECURITY_APPROVEDBY_ORG_NAME','SECURITY_APPROVEDBY_ORG_DESCR');
#44=ORGANIZATION('CLASSOFFICER_ORG_ID','CLASSOFFICER_ORG_NAME',
'CLASSOFFICER_ORG_DESCR');
#45=ORGANIZATION('CREATOR_ORG_ID','CREATOR_ORG_NAME',
'CREATOR_ORG_DESCR');
#46=ORGANIZATION('SUPPLIER_ORG_ID','SUPPLIER_ORG_NAME',
'SUPPLIER_ORG_DESCR');
#47=ORGANIZATION('OWNER_ORG_ID','OWNER_ORG_NAME','OWNER_ORG_DESCR');
#48=PERSON('DEFINITION_approverID','DEFINITION_APPROVEDBY_LASTNAME',
'DEFINITION_APPROVEDBY_FIRSTNAME',$,$,$);
#49=PERSON('DEF_createrID','DEF_CREATOR_LASTNAME',
'DEF_CREATOR_FIRSTNAME',$,$,$);
#50=PERSON('approverID','APPROVEDBY_LASTNAME','APPROVEDBY_FIRSTNAME',$,
$,$);
#51=PERSON('SECURITY_approverID','SECURITY_LASTNAME',
'SECURITY_APPROVEDBY_FIRSTNAME',$,$,$);
#52=PERSON('classifierID','CLASSOFFICER_LASTNAME',
'CLASSOFFICER_FIRSTNAME',$,$,$);
#53=PERSON('createrID','CREATOR_LASTNAME','CREATOR_FIRSTNAME',$,$,$);
#54=PERSON('supplierID','SUPPLIER_LASTNAME','SUPPLIER_FIRSTNAME',$,$,$);
#55=PERSON('ownerID','OWNER_LASTNAME','OWNER_FIRSTNAME',$,$,$);
#56=PERSON_AND_ORGANIZATION(#48,#40);
#57=PERSON_AND_ORGANIZATION(#49,#41);
#58=PERSON_AND_ORGANIZATION(#50,#42);
#59=PERSON_AND_ORGANIZATION(#51,#43);
#60=PERSON_AND_ORGANIZATION(#52,#44);
#61=PERSON_AND_ORGANIZATION(#53,#45);
#62=PERSON_AND_ORGANIZATION(#54,#46);
#63=PERSON_AND_ORGANIZATION(#55,#47);
#64=APPROVAL_ROLE('definition_approval');
#65=APPROVAL_ROLE('version_approval');
#66=APPROVAL_ROLE('security_approval');
#67=APPROVAL_DATE_TIME(#85,#93);
#68=APPROVAL_DATE_TIME(#87,#94);
#69=APPROVAL_DATE_TIME(#88,#95);
#70=COORDINATED_UNIVERSAL_TIME_OFFSET(3,0,.AHEAD.);
#71=COORDINATED_UNIVERSAL_TIME_OFFSET(3,0,.AHEAD.);
#72=COORDINATED_UNIVERSAL_TIME_OFFSET(3,0,.AHEAD.);
#73=COORDINATED_UNIVERSAL_TIME_OFFSET(3,0,.AHEAD.);
#74=COORDINATED_UNIVERSAL_TIME_OFFSET(3,0,.AHEAD.);
#75=LOCAL_TIME(13,28,36.,#70);
#76=LOCAL_TIME(13,28,36.,#71);
#77=LOCAL_TIME(13,28,36.,#72);
#78=LOCAL_TIME(13,28,36.,#73);
#79=LOCAL_TIME(13,28,36.,#74);
#80=CALENDAR_DATE(2019,4,3);
#81=CALENDAR_DATE(2019,4,3);
#82=CALENDAR_DATE(2019,4,3);
#83=CALENDAR_DATE(2019,4,3);
#84=CALENDAR_DATE(2019,4,3);
#85=DATE_AND_TIME(#80,#75);
#86=DATE_AND_TIME(#81,#76);
#87=DATE_AND_TIME(#82,#77);
#88=DATE_AND_TIME(#83,#78);
#89=DATE_AND_TIME(#84,#79);
#90=APPROVAL_STATUS('not_yet_approved');
#91=APPROVAL_STATUS('not_yet_approved');
#92=APPROVAL_STATUS('not_yet_approved');
#93=APPROVAL(#90,'defintion approval');
#94=APPROVAL(#91,'version approval');
#95=APPROVAL(#92,'security approval');
#96=PRODUCT_DEFINITION('DefinitionID','DefinitionDesc',#97,#19);
#97=PRODUCT_DEFINITION_FORMATION_WITH_SPECIFIED_SOURCE(
'PRODUCT_VERSION_ID','PRODUCT_VERSION_DESCR',#98,.NOT_KNOWN.);
#98=PRODUCT('ID_1','O 7500 - 050','',(#10));
#99=(
LENGTH_UNIT()
NAMED_UNIT(*)
SI_UNIT(.CENTI.,.METRE.)
);
#100=(
NAMED_UNIT(*)
PLANE_ANGLE_UNIT()
SI_UNIT($,.RADIAN.)
);
#101=(
NAMED_UNIT(*)
SI_UNIT($,.STERADIAN.)
SOLID_ANGLE_UNIT()
);
#102=UNCERTAINTY_MEASURE_WITH_UNIT(LENGTH_MEASURE(1.E-6),#99,
'DISTANCE_ACCURACY_VALUE',
'Maximum model space distance between geometric entities at asserted c
onnectivities');
#103=(
GEOMETRIC_REPRESENTATION_CONTEXT(3)
GLOBAL_UNCERTAINTY_ASSIGNED_CONTEXT((#102))
GLOBAL_UNIT_ASSIGNED_CONTEXT((#101,#100,#99))
REPRESENTATION_CONTEXT('ID1','3D')
);
#104=PLANE('',#343);
#105=PLANE('',#345);
#106=PLANE('',#346);
#107=TOROIDAL_SURFACE('',#332,4.75,0.25);
#108=TOROIDAL_SURFACE('',#335,4.75,0.25);
#109=CYLINDRICAL_SURFACE('',#314,0.25);
#110=CYLINDRICAL_SURFACE('',#318,0.33235);
#111=CYLINDRICAL_SURFACE('',#322,0.33235);
#112=CYLINDRICAL_SURFACE('',#326,0.33235);
#113=CYLINDRICAL_SURFACE('',#330,0.33235);
#114=CYLINDRICAL_SURFACE('',#338,4.75);
#115=CYLINDRICAL_SURFACE('',#340,2.75);
#116=CIRCLE('',#313,0.25);
#117=CIRCLE('',#315,0.25);
#118=CIRCLE('',#317,0.33235);
#119=CIRCLE('',#319,0.33235);
#120=CIRCLE('',#321,0.33235);
#121=CIRCLE('',#323,0.33235);
#122=CIRCLE('',#325,0.33235);
#123=CIRCLE('',#327,0.33235);
#124=CIRCLE('',#329,0.33235);
#125=CIRCLE('',#331,0.33235);
#126=CIRCLE('',#333,4.75);
#127=CIRCLE('',#334,4.75);
#128=CIRCLE('',#336,4.75);
#129=CIRCLE('',#337,4.75);
#130=CIRCLE('',#339,4.75);
#131=CIRCLE('',#341,2.75);
#132=CIRCLE('',#342,2.75);
#133=CIRCLE('',#344,4.75);
#134=EDGE_CURVE('',#230,#230,#116,.T.);
#135=EDGE_CURVE('',#231,#231,#117,.T.);
#136=EDGE_CURVE('',#233,#233,#118,.T.);
#137=EDGE_CURVE('',#234,#234,#119,.T.);
#138=EDGE_CURVE('',#236,#236,#120,.T.);
#139=EDGE_CURVE('',#237,#237,#121,.T.);
#140=EDGE_CURVE('',#239,#239,#122,.T.);
#141=EDGE_CURVE('',#240,#240,#123,.T.);
#142=EDGE_CURVE('',#242,#242,#124,.T.);
#143=EDGE_CURVE('',#243,#243,#125,.T.);
#144=EDGE_CURVE('',#244,#244,#126,.T.);
#145=EDGE_CURVE('',#245,#245,#127,.T.);
#146=EDGE_CURVE('',#246,#246,#128,.T.);
#147=EDGE_CURVE('',#247,#247,#129,.T.);
#148=EDGE_CURVE('',#248,#248,#130,.T.);
#149=EDGE_CURVE('',#249,#249,#131,.T.);
#150=EDGE_CURVE('',#250,#250,#132,.T.);
#151=EDGE_CURVE('',#251,#251,#133,.T.);
#152=ORIENTED_EDGE('',*,*,#134,.T.);
#153=ORIENTED_EDGE('',*,*,#134,.F.);
#154=ORIENTED_EDGE('',*,*,#135,.F.);
#155=ORIENTED_EDGE('',*,*,#136,.T.);
#156=ORIENTED_EDGE('',*,*,#136,.F.);
#157=ORIENTED_EDGE('',*,*,#137,.F.);
#158=ORIENTED_EDGE('',*,*,#138,.T.);
#159=ORIENTED_EDGE('',*,*,#138,.F.);
#160=ORIENTED_EDGE('',*,*,#139,.F.);
#161=ORIENTED_EDGE('',*,*,#140,.T.);
#162=ORIENTED_EDGE('',*,*,#140,.F.);
#163=ORIENTED_EDGE('',*,*,#141,.F.);
#164=ORIENTED_EDGE('',*,*,#142,.T.);
#165=ORIENTED_EDGE('',*,*,#142,.F.);
#166=ORIENTED_EDGE('',*,*,#143,.F.);
#167=ORIENTED_EDGE('',*,*,#144,.F.);
#168=ORIENTED_EDGE('',*,*,#145,.F.);
#169=ORIENTED_EDGE('',*,*,#146,.F.);
#170=ORIENTED_EDGE('',*,*,#147,.F.);
#171=ORIENTED_EDGE('',*,*,#148,.T.);
#172=ORIENTED_EDGE('',*,*,#147,.T.);
#173=ORIENTED_EDGE('',*,*,#146,.T.);
#174=ORIENTED_EDGE('',*,*,#145,.T.);
#175=ORIENTED_EDGE('',*,*,#149,.T.);
#176=ORIENTED_EDGE('',*,*,#150,.F.);
#177=ORIENTED_EDGE('',*,*,#149,.F.);
#178=ORIENTED_EDGE('',*,*,#144,.T.);
#179=ORIENTED_EDGE('',*,*,#151,.T.);
#180=ORIENTED_EDGE('',*,*,#150,.T.);
#181=ORIENTED_EDGE('',*,*,#151,.F.);
#182=ORIENTED_EDGE('',*,*,#135,.T.);
#183=ORIENTED_EDGE('',*,*,#137,.T.);
#184=ORIENTED_EDGE('',*,*,#139,.T.);
#185=ORIENTED_EDGE('',*,*,#141,.T.);
#186=ORIENTED_EDGE('',*,*,#143,.T.);
#187=ORIENTED_EDGE('',*,*,#148,.F.);
#188=EDGE_LOOP('',(#152));
#189=EDGE_LOOP('',(#153));
#190=EDGE_LOOP('',(#154));
#191=EDGE_LOOP('',(#155));
#192=EDGE_LOOP('',(#156));
#193=EDGE_LOOP('',(#157));
#194=EDGE_LOOP('',(#158));
#195=EDGE_LOOP('',(#159));
#196=EDGE_LOOP('',(#160));
#197=EDGE_LOOP('',(#161));
#198=EDGE_LOOP('',(#162));
#199=EDGE_LOOP('',(#163));
#200=EDGE_LOOP('',(#164));
#201=EDGE_LOOP('',(#165));
#202=EDGE_LOOP('',(#166));
#203=EDGE_LOOP('',(#167));
#204=EDGE_LOOP('',(#168));
#205=EDGE_LOOP('',(#169));
#206=EDGE_LOOP('',(#170));
#207=EDGE_LOOP('',(#171));
#208=EDGE_LOOP('',(#172));
#209=EDGE_LOOP('',(#173));
#210=EDGE_LOOP('',(#174));
#211=EDGE_LOOP('',(#175));
#212=EDGE_LOOP('',(#176));
#213=EDGE_LOOP('',(#177));
#214=EDGE_LOOP('',(#178));
#215=EDGE_LOOP('',(#179));
#216=EDGE_LOOP('',(#180));
#217=EDGE_LOOP('',(#181));
#218=EDGE_LOOP('',(#182));
#219=EDGE_LOOP('',(#183));
#220=EDGE_LOOP('',(#184));
#221=EDGE_LOOP('',(#185));
#222=EDGE_LOOP('',(#186));
#223=EDGE_LOOP('',(#187));
#224=VERTEX_LOOP('',#229);
#225=VERTEX_LOOP('',#232);
#226=VERTEX_LOOP('',#235);
#227=VERTEX_LOOP('',#238);
#228=VERTEX_LOOP('',#241);
#229=VERTEX_POINT('',#348);
#230=VERTEX_POINT('',#350);
#231=VERTEX_POINT('',#353);
#232=VERTEX_POINT('',#355);
#233=VERTEX_POINT('',#357);
#234=VERTEX_POINT('',#360);
#235=VERTEX_POINT('',#362);
#236=VERTEX_POINT('',#364);
#237=VERTEX_POINT('',#367);
#238=VERTEX_POINT('',#369);
#239=VERTEX_POINT('',#371);
#240=VERTEX_POINT('',#374);
#241=VERTEX_POINT('',#376);
#242=VERTEX_POINT('',#378);
#243=VERTEX_POINT('',#381);
#244=VERTEX_POINT('',#384);
#245=VERTEX_POINT('',#386);
#246=VERTEX_POINT('',#389);
#247=VERTEX_POINT('',#391);
#248=VERTEX_POINT('',#394);
#249=VERTEX_POINT('',#397);
#250=VERTEX_POINT('',#399);
#251=VERTEX_POINT('',#402);
#252=FACE_BOUND('',#224,.T.);
#253=FACE_BOUND('',#188,.T.);
#254=FACE_BOUND('',#189,.T.);
#255=FACE_BOUND('',#190,.T.);
#256=FACE_BOUND('',#225,.T.);
#257=FACE_BOUND('',#191,.T.);
#258=FACE_BOUND('',#192,.T.);
#259=FACE_BOUND('',#193,.T.);
#260=FACE_BOUND('',#226,.T.);
#261=FACE_BOUND('',#194,.T.);
#262=FACE_BOUND('',#195,.T.);
#263=FACE_BOUND('',#196,.T.);
#264=FACE_BOUND('',#227,.T.);
#265=FACE_BOUND('',#197,.T.);
#266=FACE_BOUND('',#198,.T.);
#267=FACE_BOUND('',#199,.T.);
#268=FACE_BOUND('',#228,.T.);
#269=FACE_BOUND('',#200,.T.);
#270=FACE_BOUND('',#201,.T.);
#271=FACE_BOUND('',#202,.T.);
#272=FACE_BOUND('',#203,.T.);
#273=FACE_BOUND('',#204,.T.);
#274=FACE_BOUND('',#205,.T.);
#275=FACE_BOUND('',#206,.T.);
#276=FACE_BOUND('',#207,.T.);
#277=FACE_BOUND('',#208,.T.);
#278=FACE_BOUND('',#209,.T.);
#279=FACE_BOUND('',#210,.T.);
#280=FACE_BOUND('',#211,.T.);
#281=FACE_BOUND('',#212,.T.);
#282=FACE_BOUND('',#213,.T.);
#283=FACE_BOUND('',#214,.T.);
#284=FACE_BOUND('',#215,.T.);
#285=FACE_BOUND('',#216,.T.);
#286=FACE_BOUND('',#217,.T.);
#287=FACE_BOUND('',#218,.T.);
#288=FACE_BOUND('',#219,.T.);
#289=FACE_BOUND('',#220,.T.);
#290=FACE_BOUND('',#221,.T.);
#291=FACE_BOUND('',#222,.T.);
#292=FACE_BOUND('',#223,.T.);
#293=ADVANCED_FACE('',(#252,#253),#470,.F.);
#294=ADVANCED_FACE('',(#254,#255),#109,.F.);
#295=ADVANCED_FACE('',(#256,#257),#471,.F.);
#296=ADVANCED_FACE('',(#258,#259),#110,.F.);
#297=ADVANCED_FACE('',(#260,#261),#472,.F.);
#298=ADVANCED_FACE('',(#262,#263),#111,.F.);
#299=ADVANCED_FACE('',(#264,#265),#473,.F.);
#300=ADVANCED_FACE('',(#266,#267),#112,.F.);
#301=ADVANCED_FACE('',(#268,#269),#474,.F.);
#302=ADVANCED_FACE('',(#270,#271),#113,.F.);
#303=ADVANCED_FACE('',(#272,#273),#107,.F.);
#304=ADVANCED_FACE('',(#274,#275),#108,.F.);
#305=ADVANCED_FACE('',(#276,#277),#114,.T.);
#306=ADVANCED_FACE('',(#278,#279),#114,.T.);
#307=ADVANCED_FACE('',(#280,#281),#115,.T.);
#308=ADVANCED_FACE('',(#282),#104,.T.);
#309=ADVANCED_FACE('',(#283,#284),#114,.T.);
#310=ADVANCED_FACE('',(#285,#286),#105,.T.);
#311=ADVANCED_FACE('',(#287,#288,#289,#290,#291,#292),#106,.F.);
#312=AXIS2_PLACEMENT_3D('',#347,#405,#406);
#313=AXIS2_PLACEMENT_3D('',#349,#407,#408);
#314=AXIS2_PLACEMENT_3D('',#351,#409,#410);
#315=AXIS2_PLACEMENT_3D('',#352,#411,#412);
#316=AXIS2_PLACEMENT_3D('',#354,#413,#414);
#317=AXIS2_PLACEMENT_3D('',#356,#415,#416);
#318=AXIS2_PLACEMENT_3D('',#358,#417,#418);
#319=AXIS2_PLACEMENT_3D('',#359,#419,#420);
#320=AXIS2_PLACEMENT_3D('',#361,#421,#422);
#321=AXIS2_PLACEMENT_3D('',#363,#423,#424);
#322=AXIS2_PLACEMENT_3D('',#365,#425,#426);
#323=AXIS2_PLACEMENT_3D('',#366,#427,#428);
#324=AXIS2_PLACEMENT_3D('',#368,#429,#430);
#325=AXIS2_PLACEMENT_3D('',#370,#431,#432);
#326=AXIS2_PLACEMENT_3D('',#372,#433,#434);
#327=AXIS2_PLACEMENT_3D('',#373,#435,#436);
#328=AXIS2_PLACEMENT_3D('',#375,#437,#438);
#329=AXIS2_PLACEMENT_3D('',#377,#439,#440);
#330=AXIS2_PLACEMENT_3D('',#379,#441,#442);
#331=AXIS2_PLACEMENT_3D('',#380,#443,#444);
#332=AXIS2_PLACEMENT_3D('',#382,#445,$);
#333=AXIS2_PLACEMENT_3D('',#383,#446,#447);
#334=AXIS2_PLACEMENT_3D('',#385,#448,#449);
#335=AXIS2_PLACEMENT_3D('',#387,#450,$);
#336=AXIS2_PLACEMENT_3D('',#388,#451,#452);
#337=AXIS2_PLACEMENT_3D('',#390,#453,#454);
#338=AXIS2_PLACEMENT_3D('',#392,#455,#456);
#339=AXIS2_PLACEMENT_3D('',#393,#457,#458);
#340=AXIS2_PLACEMENT_3D('',#395,#459,#460);
#341=AXIS2_PLACEMENT_3D('',#396,#461,#462);
#342=AXIS2_PLACEMENT_3D('',#398,#463,#464);
#343=AXIS2_PLACEMENT_3D('',#400,#465,$);
#344=AXIS2_PLACEMENT_3D('',#401,#466,#467);
#345=AXIS2_PLACEMENT_3D('',#403,#468,$);
#346=AXIS2_PLACEMENT_3D('',#404,#469,$);
#347=CARTESIAN_POINT('',(0.,2.,0.));
#348=CARTESIAN_POINT('',(0.,2.15021515475689,0.));
#349=CARTESIAN_POINT('',(0.,2.,0.));
#350=CARTESIAN_POINT('',(0.,2.,0.25));
#351=CARTESIAN_POINT('',(0.,0.,0.));
#352=CARTESIAN_POINT('',(0.,0.,0.));
#353=CARTESIAN_POINT('',(0.,0.,0.25));
#354=CARTESIAN_POINT('',(0.,0.5,-2.6));
#355=CARTESIAN_POINT('',(0.,0.699696026733809,-2.6));
#356=CARTESIAN_POINT('',(0.,0.5,-2.6));
#357=CARTESIAN_POINT('',(0.,0.5,-2.26765));
#358=CARTESIAN_POINT('',(0.,0.,-2.6));
#359=CARTESIAN_POINT('',(0.,0.,-2.6));
#360=CARTESIAN_POINT('',(0.,0.,-2.26765));
#361=CARTESIAN_POINT('',(0.,0.5,2.6));
#362=CARTESIAN_POINT('',(0.,0.699696026733809,2.6));
#363=CARTESIAN_POINT('',(0.,0.5,2.6));
#364=CARTESIAN_POINT('',(0.,0.5,2.93235));
#365=CARTESIAN_POINT('',(0.,0.,2.6));
#366=CARTESIAN_POINT('',(0.,0.,2.6));
#367=CARTESIAN_POINT('',(0.,0.,2.93235));
#368=CARTESIAN_POINT('',(2.6,0.5,0.));
#369=CARTESIAN_POINT('',(2.6,0.699696026733809,0.));
#370=CARTESIAN_POINT('',(2.6,0.5,0.));
#371=CARTESIAN_POINT('',(2.6,0.5,0.33235));
#372=CARTESIAN_POINT('',(2.6,0.,0.));
#373=CARTESIAN_POINT('',(2.6,0.,0.));
#374=CARTESIAN_POINT('',(2.6,0.,0.33235));
#375=CARTESIAN_POINT('',(-2.6,0.5,0.));
#376=CARTESIAN_POINT('',(-2.6,0.699696026733809,0.));
#377=CARTESIAN_POINT('',(-2.6,0.5,0.));
#378=CARTESIAN_POINT('',(-2.6,0.5,0.33235));
#379=CARTESIAN_POINT('',(-2.6,0.,0.));
#380=CARTESIAN_POINT('',(-2.6,0.,0.));
#381=CARTESIAN_POINT('',(-2.6,0.,0.33235));
#382=CARTESIAN_POINT('',(0.,18.4,0.));
#383=CARTESIAN_POINT('',(0.,18.65,0.));
#384=CARTESIAN_POINT('',(-4.75,18.65,5.81707229594993E-16));
#385=CARTESIAN_POINT('',(0.,18.15,0.));
#386=CARTESIAN_POINT('',(-4.75,18.15,-5.81707229594993E-16));
#387=CARTESIAN_POINT('',(0.,2.1,0.));
#388=CARTESIAN_POINT('',(0.,2.35,0.));
#389=CARTESIAN_POINT('',(-4.75,2.35,5.81707229594993E-16));
#390=CARTESIAN_POINT('',(0.,1.85,0.));
#391=CARTESIAN_POINT('',(-4.75,1.85,-5.81707229594993E-16));
#392=CARTESIAN_POINT('',(0.,0.,0.));
#393=CARTESIAN_POINT('',(0.,0.,0.));
#394=CARTESIAN_POINT('',(4.75,0.,0.));
#395=CARTESIAN_POINT('',(0.,20.4,0.));
#396=CARTESIAN_POINT('',(0.,25.5,0.));
#397=CARTESIAN_POINT('',(2.75,25.5,0.));
#398=CARTESIAN_POINT('',(0.,20.4,0.));
#399=CARTESIAN_POINT('',(2.75,20.4,0.));
#400=CARTESIAN_POINT('',(0.,25.5,0.));
#401=CARTESIAN_POINT('',(0.,20.4,0.));
#402=CARTESIAN_POINT('',(4.75,20.4,0.));
#403=CARTESIAN_POINT('',(0.,20.4,0.));
#404=CARTESIAN_POINT('',(0.,0.,0.));
#405=DIRECTION('',(0.,-1.,0.));
#406=DIRECTION('',(0.,0.,0.25));
#407=DIRECTION('',(0.,-1.,0.));
#408=DIRECTION('',(0.,0.,0.25));
#409=DIRECTION('',(0.,1.,0.));
#410=DIRECTION('',(0.,0.,0.25));
#411=DIRECTION('',(0.,1.,0.));
#412=DIRECTION('',(0.,0.,0.25));
#413=DIRECTION('',(0.,-1.,0.));
#414=DIRECTION('',(0.,0.,0.33235));
#415=DIRECTION('',(0.,-1.,0.));
#416=DIRECTION('',(0.,0.,0.33235));
#417=DIRECTION('',(0.,1.,0.));
#418=DIRECTION('',(0.,0.,0.33235));
#419=DIRECTION('',(0.,1.,0.));
#420=DIRECTION('',(0.,0.,0.33235));
#421=DIRECTION('',(0.,-1.,0.));
#422=DIRECTION('',(0.,0.,0.33235));
#423=DIRECTION('',(0.,-1.,0.));
#424=DIRECTION('',(0.,0.,0.33235));
#425=DIRECTION('',(0.,1.,0.));
#426=DIRECTION('',(0.,0.,0.33235));
#427=DIRECTION('',(0.,1.,0.));
#428=DIRECTION('',(0.,0.,0.33235));
#429=DIRECTION('',(0.,-1.,0.));
#430=DIRECTION('',(0.,0.,0.33235));
#431=DIRECTION('',(0.,-1.,0.));
#432=DIRECTION('',(0.,0.,0.33235));
#433=DIRECTION('',(0.,1.,0.));
#434=DIRECTION('',(0.,0.,0.33235));
#435=DIRECTION('',(0.,1.,0.));
#436=DIRECTION('',(0.,0.,0.33235));
#437=DIRECTION('',(0.,-1.,0.));
#438=DIRECTION('',(0.,0.,0.33235));
#439=DIRECTION('',(0.,-1.,0.));
#440=DIRECTION('',(0.,0.,0.33235));
#441=DIRECTION('',(0.,1.,0.));
#442=DIRECTION('',(0.,0.,0.33235));
#443=DIRECTION('',(0.,1.,0.));
#444=DIRECTION('',(0.,0.,0.33235));
#445=DIRECTION('',(0.,1.,0.));
#446=DIRECTION('',(0.,1.,0.));
#447=DIRECTION('',(4.75,0.,0.));
#448=DIRECTION('',(0.,-1.,0.));
#449=DIRECTION('',(4.75,0.,0.));
#450=DIRECTION('',(0.,1.,0.));
#451=DIRECTION('',(0.,1.,0.));
#452=DIRECTION('',(4.75,0.,0.));
#453=DIRECTION('',(0.,-1.,0.));
#454=DIRECTION('',(4.75,0.,0.));
#455=DIRECTION('',(0.,1.,0.));
#456=DIRECTION('',(4.75,0.,0.));
#457=DIRECTION('',(0.,1.,0.));
#458=DIRECTION('',(4.75,0.,0.));
#459=DIRECTION('',(0.,1.,0.));
#460=DIRECTION('',(2.75,0.,0.));
#461=DIRECTION('',(0.,-1.,0.));
#462=DIRECTION('',(2.75,0.,0.));
#463=DIRECTION('',(0.,-1.,0.));
#464=DIRECTION('',(2.75,0.,0.));
#465=DIRECTION('',(0.,1.,0.));
#466=DIRECTION('',(0.,-1.,0.));
#467=DIRECTION('',(4.75,0.,0.));
#468=DIRECTION('',(0.,1.,0.));
#469=DIRECTION('',(0.,1.,0.));
#470=CONICAL_SURFACE('',#312,0.25,1.02974425867665);
#471=CONICAL_SURFACE('',#316,0.33235,1.02974425867665);
#472=CONICAL_SURFACE('',#320,0.33235,1.02974425867665);
#473=CONICAL_SURFACE('',#324,0.33235,1.02974425867665);
#474=CONICAL_SURFACE('',#328,0.33235,1.02974425867665);
#475=CLOSED_SHELL('',(#293,#294,#295,#296,#297,#298,#299,#300,#301,#302,
#303,#304,#305,#306,#307,#308,#309,#310,#311));
#476=MANIFOLD_SOLID_BREP('',#475);
#477=ADVANCED_BREP_SHAPE_REPRESENTATION('',(#476),#103);
ENDSEC;
END-ISO-10303-21;
